tabs for black majic woman for guitar

Go down

tabs for black majic woman for guitar

Post  the gutiar guru on Fri Feb 06, 2009 8:15 am

Intro:
e|--------------------------------------------------------------------------------|
B|--8p6~~~~-----------6h8p6~~~~-8----------10--8--6\5~~--8--6--5/3~~--10--8--6\5~~|
G|----------7/9\7~~~~-------------7/9\7~~-----------------------------------------|
D|--------------------------------------------------------------------------------|
A|--------------------------------------------------------------------------------|
E|--------------------------------------------------------------------------------|

e|------------------10------|--------------------------------|----------10--------|
B|--8--6-5--------10--------|--13b15-13-13b15-10-13b15~~~~~--|--13b15~~----13-10--|
G|--------------10----------|--------------------------------|--------------------|
D|------------12------------|--------------------------------|--------------------|
A|----------12--------------|-(0:41)-------------------------|--------------------|
E|--------10----------------|--------------------------------|--------------------|

e|-----------------|-------12-13-12h13p12---------|--------10----------------------|
B|-----------------|-10-13----------------13b15~~-|-13b15~~---13p10----------------|
G|-12b14r12p10\9~~-|------------------------------|-----------------12b14r12p10h12-|
D|-----------------|------------------------------|--------------------------------|
A|-----------------|------------------------------|--------------------------------|
E|-----------------|------------------------------|--------------------------------|

e|--------12-13-13/15~~-15b17r15p13------13~~-19
b20~~\\\\10----------------------|
B|------13----------------------------15------------------------------------------|
G|----14-----------------------------------------------------12b14r12p10----10h12-|
D|--14-------------------------------------------------------------------12-------|
A|--(rake)------------------------------------------------------------------------|
E|--------------------------------------------------------------------------------|

e|-------------------------------------10\--|
B|-------------------------------------10\--|
G|-------------------------------------10\--|
D|----10h12p10----10-------------------12\--|
A|-12----------12----12p10\8-10-8------12\--|
E|--------------------------------10-8/10\--|


All of these tabs were made from Ryan Izzo

Thank you man also all of these tabs are from fretplay.com
avatar
the gutiar guru

Number of posts : 21
Age : 22
Location : next to you
Registration date : 2009-01-02

View user profile

Back to top Go down

Back to top

- Similar topics

 
Permissions in this forum:
You cannot reply to topics in this forum