tabs for oye como va from santana

View previous topic View next topic Go down

tabs for oye como va from santana

Post  the gutiar guru on Fri Feb 06, 2009 8:23 am

Tablature Explanation:
h=hammer-on
p=pull-off
/=slide up
\=slide down
b=bend slight
^=bend full
9r7=pre bend from fret 7 to 9, pick and release

|--------7-8-10--7----------------------7-8-10--7----------------|
|-10--10------------8h10---------10--10------------8-10----------|
|-------------------------------------------------------9r7------|
|-----------------------------------------------------------10---|
|----------------------------------------------------------------|
|-(0:15)---------------------------------------------------------|


|--------7-8-10--7----------------------7-8-10--7---------------|
|-10--10------------8h10---------10--10------------8-10---------|
|-------------------------------------------------------9r7-----|
|-----------------------------------------------------------10--|
|---------------------------------------------------------------|
|---------------------------------------------------------------|


|-5---5-5---5-5-5-----------------5---5---5-5-----------------5-|
|-5---5-5---5-5-5---5-5-5-7---5---5---5---5-5---7-----5-------5-|
|-5---5-5---5-5-5---5-5-5-7---5---5---5---5-5---7-----5-------5-|
|---------------------------7-----------------------7-----------|
|---------------------------------------------------------------|
|-(0:30)--------------------------------------------------------|


|-5---5-5---5-5-5-----------------|
|-5---5-5---5-5-5---5-5-5-7---5---|
|-5---5-5---5-5-5---5-5-5-7---5---|
|---------------------------7-----|
|---------------------------------|
|-(0:53)--------------------------|


|----------------------------------------------------5---5------|
|-----5-8-5-8-5h7-----------------------5-8-5-8-5h7-------5-----|
|------------------7----5h7-7p5-------5-------------------5-----|
|-7----------------------------7p5h7----------------------------|
|---------------------------------------------------------------|
|-(0:56)--------------------------------------------------------|


|-------------------------------------------5----------5--/6/7--|
|------5-8-5-8-5h7----------------------5-8---5-8-5h7-----------|
|----5--------------7----5h7-7p5------5-------------------------|
|-7-----------------------------7p5h7---------------------------|
|---------------------------------------------------------------|
|---------------------------------------------------------------|


|-8-8-5-5-8-5---8---5----5---------------8-8---------8------------------|
|---------------------/7---------------------8h10-10---10-------10------|
|-----------------------------5h7-7p5-----------------------/11----9----|
|--------------------------------------------------------------------10-|
|-----------------------------------------------------------------------|
|-(1:11)----------------------------------------------------------------|


|-8-8-5-5-8-5---8---5----5---------------8-8---------8-------------------|
|---------------------/7---------------------8h10-10---10--------10--/17-|
|-----------------------------5h7-7p5-----------------------/11----------|
|------------------------------------------------------------------------|
|------------------------------------------------------------------------|
|------------------------------------------------------------------------|


|-8-5---8-5---8-5---8-5---8-5---88-5---8-5---8-5------------------|
|-----------------------------------------------------------------|
|------------------------------------------------5h7^---5--7p5----|
|-----------------------------------------------------------------|
|-----------------------------------------------------------------|
|-(1:26)----------------------------------------------------------|


|----------------------------------------|
|----------5---5-7-----------------------|
|-5555-5-5---5---------------------(3x)--|
|--------------------4-5---6---7---------|
|----------------------------------------|
|-(1:34)---------------------------------|


|-5---5-----5---5------|
|-5---5-----5---5------|
|-5---5-----5---5------|
|----------------------|
|----------------------|
|-(1:45)-fill----------|


|--------------------------------------------------------------
|-------5-----5-------5-----5------------5-----5-------5-----5-
|-----5-----5-------5-------5----------5-----5---------5-----5-
|-5-7-----6-----5-------4------4-/-7-------6-----5---4---4-----
|--------------------------------------------------------------
|-(1:52)-(quiet pat)-------------------------------------------


-----------------------------------------------------------------|
--------5-----5-------5-----5-----------5-----5-------5-----5----|
------5-----5-------5-------5---------5-----5-------5-------5----|
--7-------6-----5-------4-----4-/-7-------6-----5-------4--------|
-----------------------------------------------------------------|
------------------------------(....this part hard to hear....)---|


|-5---5-5---5-5-5----------------|
|-5---5-5---5-5-5---5-5-5-7---5--|
|-5---5-5---5-5-5---5-5-5-7---5--|
|---------------------------7----|
|--------------------------------|
|-(2:55)-------------------------|


|---5/12--|
|---------|
|---------|
|-pre-solo|
|---------|
|-(3:19)--|

solo:
|-8---5-5-8-5---8---5----5-------------8-8-5-5-8-5----5---------------|
|---------------------/7---------------------------/7-----------5-----|
|----------------------------5h7-7p5--------------------5h7^---5-5----|
|---------------------------------------------------------------------|
|---------------------------------------------------------------------|
|-(3:21)--------------------------------------------------------------|


|-8-8-5-5-8-5---8---5----5-------------8-8---------8------------------|
|---------------------/7-------------------8h10-10---10-------10-/17--|
|----------------------------5h7-7p5---------------------/11----------|
|---------------------------------------------------------------------|
|---------------------------------------------------------------------|
|---------------------------------------------------------------------|


|-15^-15^-15^r--12-12h14--17-----------------5------5------5------5---5-
|----------------------------13\--------8^-----8^-----8^-----8^-----8^--
|-----------------------------------------------------------------------
|-----------------------------------------------------------------------
|-----------------------------------------------------------------------
|-(3:36)----------------------------------------------------------------


-------------------------------------------------------------------------|
----5---------5-----------------5------5-5-----5-5-----------------------|
-7^---7-5---5-5-5---8p7b--7^----5-7^-----5-5---5-5-----------------------|
----------7-------7--------------------------7-----7--/7--5h7p5----------|
----------------------------------------------------------------7p5---5--|
--------------------------------------------------------------------8---8|


|---------5------------------------|
|-5-------5-5---5-7---7-5---5-5----|
|-5-----5---5---5-7---7-5---5-5----|
|-----7-------7--------------------|
|----------------------------------|
|-(3:51)---------------------------|


|-8-5---8-5---8-5---12\5---8-5---10\5---8-5---88-5---8-5---8-5---8-5-5-8-5---
|----------------------------------------------------------------------------
|----------------------------------------------------------------------------
|----------------------------------------------------------------------------
|----------------------------------------------------------------------------
|-(3:55)---------------------------------------------------------------------


-8-5-8-8---8-5---8-5----|
------------------------|
------------------------|
------------------------|
------------------------|
------------------------|


|-5---5-5---5-5-5-----------------5---5---5-5-----------------5\-|
|-5---5-5---5-5-5---5-5-5-7---5---5---5---5-5---7-----5-------5\-|
|-5---5-5---5-5-5---5-5-5-7---5---5---5---5-5---7-----5--huh!-5\-|
|---------------------------7-----------------------7------------|
|----------------------------------------------------------------|

these are not my tabs or song this is from fretplay.com also credit is given to jordan L
avatar
the gutiar guru

Number of posts : 21
Age : 22
Location : next to you
Registration date : 2009-01-02

View user profile

Back to top Go down

View previous topic View next topic Back to top

- Similar topics

 
Permissions in this forum:
You cannot reply to topics in this forum